忍者ブログ
趣味である音楽(主にメタル)や競馬に関するブログ
×

[PR]上記の広告は3ヶ月以上新規記事投稿のないブログに表示されています。新しい記事を書く事で広告が消えます。

こんばんは。今月はそんなに音源買ってないなあ、とか思いつつも
ここ数日でいろいろ注文することになりそうです。




修士論文提出締切まで一カ月を切りました。
相変わらず舐め腐った態度をとっています。
きっと明日は大学へ行かずに弾き籠っていることでしょう。


ギターの方は相変わらず地獄シリーズに則って練習
色々読み返していると・・・


--15-12---------------12-15-12--
-----------12------12----------------
----------------12---------------------
-----------------------------------------
-----------------------------------------
-----------------------------------------


こんな感じのよくある3本弦スウィープなんですが、
1弦15fピッキング→プリングで12fを発音→スウィープ
って流れになると思うんですが、私は↑のケースだと3弦をアップで弾きます。


教則本を読み返していたら、ダウンで弾いていますね。
地獄も超絶ギプスの方もそうなってます。
良く読んでいなかったためか、テキトーにアップでやっていました。
ということでダウンでやってみると非常にやり難いです・・・


あと最初の1弦のピッキングはダウン、アップどちらでやる人が多いんでしょう。
私はアップから始める方が好きです。
流れにもよるんで、ダウンからでもできるように練習してますけどね。


そして、先日はじめた6本弦スウィープ


-------------------------------12-15-12--------------------------
--------------------------12---------------12----------------------
---------------------12-------------------------12-----------------
----------------14----------------------------------14-------------
-----------14-------------------------------------------14---------
--12-15----------------------------------------------------15-12


よくあるこのフィンガリングのパターン
異弦同フレットの弦移動が続くわけですが、
人差し指はまだしも薬指が結構厄介です・・・
特にアップ時が中々上手くいきません。
ただ、慣れると右手のミュートに気を使わないでも
左手だけである程度ミュートできそうですね。


そしてスキッピングですが、よくスウィープよりも速いテンポで弾くことは
困難だが、リズミカルに弾くことができる!みたいに言われてますよね。
私の場合、弦飛び時にあからさまに音が途切れるので、スウィープの方がマシです。
まあ、ただの練習不足ですね。毎日基本から鍛えていかねば・・・


明日は色々入金でも済ませて、家で論文でも書きますか。
まあ、やらないんでしょうけどw


リンク先にあるブログですが、あまり更新しないみたいです。
あの野郎・・・ベースもサボっているし舐め腐っているようだな・・・
PR
この記事にコメントする
お名前
タイトル
メールアドレス
URL
コメント
パスワード   Vodafone絵文字 i-mode絵文字 Ezweb絵文字
この記事へのトラックバック
この記事にトラックバックする:
プロフィール
HN:
Mosa
年齢:
33
性別:
男性
誕生日:
1984/08/10
職業:
研修中
趣味:
音楽鑑賞 競馬観戦
フリーエリア
ブログ内検索
カレンダー
09 2017/10 11
S M T W T F S
1 2 3 4 5 6 7
8 9 10 11 12 13 14
15 16 17 18 19 20 21
22 23 24 25 26 27 28
29 30 31
最新TB
(09/09)
カウンター
アクセス解析
忍者ブログ [PR]